Регистрация

Hero

  • Автор: Nickelback
  • Текст песни:
    Author/Artist: Chad Kroeger and Josey Scott
    Title: Hero
    Album: Spiderman OST
    Transcribed by: Rishesh Singh
    Email: Sheesh@attbi.com
    
    Notes:  - This is a Corrected Version of my last tab for this song.
            - Sorry about the last tab, i guess i was high at the time
            - Tune Your Guitar Down a Half-Step (low to high - Eb Ab Db Gb Bb Eb)
       
    
    
    Verse Riff [It sounds like one chord, but crank up the volume and listen
                REALLY closely...it switches Am to A2]:
    
    ------------------------------------------------------------------------------
    -1-0--1-0-------------1-0--1-0------------------------------------------------
    -2-2--2-2-------------2-2--2-2------------------------------------------------
    -2-2--2-2--3-3-3-3----2-2--2-2--3-3-3-3---------------------------------------
    -----------3-3-3-3--------------3-3-3-3---------------------------------------
    -----------1-1-1-1--------------1-1-1-1---------------------------------------
                                                                                  
    
    Prechorus:
    
    ------------------------------------------------------------------------------
    ------------------------------------------------------------------------------
    ------------------------------------------------------------------------------
    -6-6-6-6-6-6--8-8-8-8-8-8----3-3-3-3-3-3-3-3-3--------------------------------
    -6-6-6-6-6-6--8-8-8-8-8-8----3-3-3-3-3-3-3-3-3--------------------------------
    -4-4-4-4-4-4--6-6-6-6-6-6----1-1-1-1-1-1-1-1-1--------------------------------
                                                                                  
    
    Chorus [u can use bar chords if u want - powers play along better w/ the song]
                              
                               -------------------------------------------------
                              |               First Ending                      |
    ------------------------------------------------------------------------------
    ------------------------------------------------------------------------------
    ------------------------------------------------------------------------------
    -6-6-6-6-6-6--8-8-8-8-8-8--10--10--10--10--10--10--10--10--10--10--10--10-----
    -6-6-6-6-6-6--8-8-8-8-8-8--10--10--10--10--10--10--10--10--10--10--10--10-----
    -4-4-4-4-4-4--6-6-6-6-6-6---8---8---8---8---8---8---8---8---8---8---8---8-----
                                                                                  
     ----------------------
    |    Second Ending     |
    ------------------------------------------------------------------------------
    ------------------------------------------------------------------------------
    ------------------------------------------------------------------------------
    -3-3-3-3-3-3-3-3-3-3-3-3------------------------------------------------------
    -3-3-3-3-3-3-3-3-3-3-3-3------------------------------------------------------
    -1-1-1-1-1-1-1-1-1-1-1-1------------------------------------------------------
                                
    
    
                                                                                  
    
    
    Solo [notes with * over, mean that note is an wobbly echo type thing,
          if u dont have fx picking it sounds ok]
    
                                      * * *     ** ** **          
    ------------------------------------------------------------------------------
    ------------------------------------------------------------------------------
    ------------------------------------------------------------------------------
    ------------------------------------------------------------------------------
    -6p5-6p5-6p5-----6p5-6p5-6p5--------------------------10p8-10p8-10p8----------
    --------------8--------------6--8-8-8-8--10-10-10-10------------------11------
                                                                                  
    
                           
    ------------------------------------------------------------------------------
    ------------------------------------------------------------------------------
    ------------------------------------------------------------------------------
    ------------------------------------------------------------------------------
    -10p8-10p8-10p8-------------6-6-6--8-8-8--10-10-------------------------------
    ----------------10---8-8-8----------------------------------------------------
                                                                                  
    
    Fingerpicked Part [isn’t exact...but fingerpick G#, A#, and C Bar Chords and 
                       end on F]
    
    
    -4-----------4-6-----------6-8-----------8-10-8-------------------------------
    ---4-------4-----6-------6-----8-------8--------10----------------------------
    -----5---5---------7---7---------9---9----------------------------------------
    -------6-------------8-------------10-----------------------------------------
    ------------------------------------------------------------------------------
    ------------------------------------------------------------------------------
                                                                                  
    
    -4-----------4-6--------------------------------------------------------------
    ---4-------4-----6------------------------------------------------------------
    -----5---5---------7----------------------------------------------------------
    -------6-------------8----3-3-3-3-3-3-3-3-------------------------------------
    --------------------------3-3-3-3-3-3-3-3-------------------------------------
    --------------------------1-1-1-1-1-1-1-1-------------------------------------
                                                                                
    
      
    Ending Chord:
    
    ------------------------------------------------------------------------------
    ------------------------------------------------------------------------------
    ------------------------------------------------------------------------------
    -10---------------------------------------------------------------------------
    -10---------------------------------------------------------------------------
    --8---------------------------------------------------------------------------
  • Аккорды, присутствующие в подборе:
Рейтинг: 0 Голосов: 0 Ваша оценка:

© 2012 MuzHub.net

Поддержка: info@muzhub.net. Создание сайта - DesignWebStudio.com.ua