Регистрация

Hollywood

  • Автор: Nickelback
  • Текст песни:
    Band: Nickelback
    Song: Hollywood (3:04)
    Tuning: Dropped D (DADGBe)
    
    Intro
    
    E|-----------------------------------------------
    B|-----------------------------------------------
    G|-----------------------------------------------
    D|-----------------------------------------------
    A|-----------------------------------------------
    D|-10b-8--10b-8-XX-10b-8--3-5h-3-8h-8-5-3-5------
    
    Main Riff (basically until Solo)
    
    E|---------------------------------------------
    B|---------------------------------------------
    G|---------------------------------------------
    D|-10-8--10-8----10-8--3-5h-3-8h-8-5-3-5-------
    A|-10-8--10-8----10-8--3-5h-3-8h-8-5-3-5-------
    D|-10-8--10-8----10-8--3-5h-3-8h-8-5-3-5-------
    
    Solo
    
    E|------------------------------------------------------------------
    B|-5-3--5-3----------5-3---------------------5-3--5-3----------5-3--
    G|----------3-5h-3-0----------------------------------3-5h-3-0------
    D|-----------------------3-5h-3-8h-8-5-3-5-8------------------------
    A|------------------------------------------------------------------
    D|------------------------------------------------------------------
    
    E|---------------------8-6-8-6--10-8-6--8-6-6-8-6-10-8-6-8/--6-8-8-10-14-16-18-
    B|-----------------------------------------------------------------------------
    G|-----------------------------------------------------------------------------
    D|-3-5H-3-8H-8-5-3-5-8---------------------------------------------------------
    A|-----------------------------------------------------------------------------
    D|-----------------------------------------------------------------------------
    
    Then go back to playing main riff basically until end of song.
    
    Enjoy! Any corrections - pez555@hotmail.com
Рейтинг: 0 Голосов: 0 Ваша оценка:

© 2012 MuzHub.net

Поддержка: info@muzhub.net. Создание сайта - DesignWebStudio.com.ua