Регистрация

How You Remind Me

  • Автор: Nickelback
  • Текст песни:
    Nickelback - How You Remind Me
    
    
    
        Verses        "This is how you remind me of what I really am..."                     
    E|--------------------------|--------------------------------------r--r--|------
    B|--------------------------|--------------------------------------e--e--|------
    G|--5--5--3--3--5--5--3--3--|--------5-----------------------3-----s--s--|------
    D|--5--5--1--3--5--5--3--3--|-----5--------------5--------3--------t--t--|------
    A|--3--3--1--1--3--3--1--1--|--3--------3-----3--------1--------1--------|------
    D|-----3-----1-----3-----1--|--------------3--------3--------------------|------
                                                                            
    
                                                                            
    E---------------------------------------------------r--r--|-------------
    B---------------------------------------------------e--e--|-------------
    G---------5-----------------------3-----------------s--s--|--------5----
    D------5--------------5--------3--------------3-----t--t--|-----5-------
    A---3--------3-----3--------1--------1-----3--------------|--3----------
    D---------------3--------3--------------1--------1--------|-------------
                                                                            
    
                             Chorus                           
    E---------------------|-------------------------------------------------| 
    B---------------------|-------------------------------------------------| 
    G------------------3--|--5--5--5--5--------------3--3--3--3-------------| 
    D------------5-----3--|--5--5--5--5--3--3--3--3--3--3--3--3--1--1--1--1-| 
    A---3-----3--------1--|--3--3--3--3--3--3--3--3--1--1--1--1--1--1--1--1-| 
    D------3--------3-----|--------------3--3--3--3--------------1--1--1--1-| 
                       ^Chomp away on this chord
    
                                                                            
    
        Two first chords, hit 2x, then rest                             
    E--------------------------------------|-------------------------
    B--------------------------------------|-------------------------
    G-5--5---------3--3--3--3--------------|--5--5--5--5-------------
    D-5--5--3--3---3--3--3--3--1--1--1--1--|--5--5--5--5--3--3--3--3-
    A-3--3--3--3---1--1--1--1--1--1--1--1--|--3--3--3--3--3--3--3--3-
    D-------3--3---------------1--1--1--1--|--------------3--3--3--3-
                                                                            
    
                                                                            
    E--------------------------------------------------------------------
    B--------------------------------------------------------------------
    G---3--3--3--3-------------------------------------------------------
    D---3--3--3--3--1--1--1--1-------------------------------------------
    A---1--1--1--1--1--1--1--1-------------------------------------------
    D---------------1--1--1--1-------------------------------------------
Рейтинг: 0 Голосов: 0 Ваша оценка:

© 2012 MuzHub.net

Поддержка: info@muzhub.net. Создание сайта - DesignWebStudio.com.ua