Регистрация

How You Remind Me

  • Автор: Nickelback
  • Текст песни:
    Nickelback How you remind me.
     Tabbed by dfivehorizons@hotmail.com.
      
    How you remind me by Nickelback
    Silver side up
    Tabbed By David Molina Bravo dfivehorizons@hotmail.com
    
    This tab is based on Greg´s tab (MigraneMan7@excite.com.) 
    but i made a few changes here and there to make it more accurate
    if anyone can make contributions to this tab they´re welcome
    
    Hear the CD for the strumming pattern
    
    Drop D Tunning DADGBE
    
    (Intro) 
    e--3---3---1---1-------------- 
    B--3---6---1---4-------------- 
    G--5---5---3---3--------------  
    D--5---3---3---1-------------- 
    A--3---3---1---1-------------- 
    D----------------------------- 
    never made it as a wise man...
    
    
    
    e--3--3------------------1---- 
    B--3----3--------8-------1---- 
    G--5------5---6-----8--3------ 2x 
    D--5----------6--------3------
    A----------------------------- 
    D----------------------------- 
    and this is how you remind me...
    
    Third time 
    
    e--3--3----------------------- 
    B--3----3--------8------------ 
    G--5------5---6-----8--3------ 
    D--5----------6--------3--1---
    A----------------------1--1--- 
    D-------------------------1--- 
    this is how you remind me of what i really am...
    
    
    Chorus (Riff 1) 
    e-----------------------------
    B-----------------------------
    G--5---------3----------------
    D--5----1----3----3-----------
    A--3----1----1----3-----------
    D--1----1---------3-----------
    it’s not like you to say sorry...
    
    e-----------------------------
    B-----------------------------
    G--5---------3----------------
    D--5----1----3----3-----------
    A--3----1----1----3-----------
    D-------1---------3-----------
    i’ve been wrong, i’ve been down...
    
    e-----------------------------
    B-----------------------------
    G--5---------3----------------
    D--5----3----3----1-----------
    A--3----3----1----1-----------
    D--3----3----1----1-----------
    yeah, yeah, yeah, no, no...
    
    (2 verse) 
    e--3---3---1---1-------------- 
    B--3---6---1---4-------------- 
    G--5---5---3---3--------------  
    D--5---3---3---1-------------- 
    A--3---3---1---1-------------- 
    D----------------------------- 
    it’s not like you didn’t know that
    i said i love you and i swear i still do
    and it must have been so bad
    cuz living with me must have damn near killed you
    
    and this is how you remind me of what i really am
    this is how you remind me of what i really am
    
    Chorus
    
    Quiet part:
    (Intro) 
    e--3---3---1---1-------------- 
    B--3---6---1---4-------------- 
    G--5---5---3---3--------------  
    D--5---3---3---1-------------- 
    A--3---3---1---1-------------- 
    D----------------------------- 
    never made it as a wise man...
    
    e----------------------------- 
    B----------------------------- 
    G--5---8---10-----------------  
    D--5---8---10----------------- 
    A--3---6---8------------------ 
    D----------------------------- 
    and this is how you remind me...
    
    
    
    e--3--3----------------------- 
    B--3----3--------8------------ 
    G--5------5---6-----8--3------ 
    D--5----------6--------3--1---
    A----------------------1--1--- 
    D-------------------------1--- 
    this is how you remind me of what i really am...
    
    Back to Chorus 
    :: Ultimate Guitar Archive :: 
    http://www.ultimate-guitar.com 
    
    
    
    
  • Аккорды, присутствующие в подборе:
Рейтинг: 0 Голосов: 0 Ваша оценка:

© 2012 MuzHub.net

Поддержка: info@muzhub.net. Создание сайта - DesignWebStudio.com.ua