Регистрация

Just For

  • Автор: Nickelback
  • Текст песни:
    Title: Just For
    Artist: Nickelback
    Tabber: Roo6339 (roo_6339@hotmail.com)
    
    Intro:
    
    e|-------------------------------------------------------------------------------------|
    B|-------------------------------------------------------------------------------------|
    G|-------------------------------------------------------------------------------------|
    D|-xxxxxxxx-2/3-3--6-6--6-6------xxxxxxxx-2/3-3--6-6--6-6-------xxxxxxxx-3---1---3---1-|
    A|-xxxxxxxx-2/3-3--6-6--6-6--6-6-xxxxxxxx-2/3-3--6-6--6-6--6-6--xxxxxxxx-3---1---3---1-|
    E|-xxxxxxxx-0/1-1--4-4--4-4--6-6-xxxxxxxx-0/1-1--4-4--4-4--6-6--xxxxxxxx-1---1---1---1-|
    
    Verse:
    
    I can’t figure this part out... I tend to just fiddle around on the d string
    
    Chorus:
    
    e|-----------------------------------------------------------------------------------|
    B|-----------------------------------------------------------------------------------|
    G|-----------------------------------------------------------------------------------|
    D|-3--6----xxxxxxxx-2/3-3--6-6--6-6------xxxxxxxx-3--6----xxxxxxxx-3--6----xxxxxxxxx-|
    A|-3--6--6-xxxxxxxx-2/3-3--6-6--6-6--6-6-xxxxxxxx-3--6--6-xxxxxxxx-3--6--6-xxxxxxxxx-|
    E|-1--4--6-xxxxxxxx-0/1-1--4-4--4-4--6-6-xxxxxxxx-1--4--6-xxxxxxxx-1--4--6-xxxxxxxxx-|
    
     And I want to rip his heart out just for hurting you and I want, to break his mind down
    
    e|-------------------------------------------------------------|
    B|-------------------------------------------------------------|
    G|-------------------------------------------------------------|
    D|-xxxxxxxx-2/3-3--6-6--6-6------xxxxxxxx-2/3-3--6-6--6-6------|
    A|-xxxxxxxx-2/3-3--6-6--6-6--6-6-xxxxxxxx-2/3-3--6-6--6-6--6-6-|
    E|-xxxxxxxx-0/1-1--4-4--4-4--6-6-xxxxxxxx-0/1-1--4-4--4-4--6-6-|
    
       Yes I do!                     Yes I do!     etc... until:                 
    e|------------------------| 
    B|------------------------|
    G|------------------------|
    D|-xxxxxxxx-3---1---3---1-| Let each of these chords ring.
    A|-xxxxxxxx-3---1---3---1-|
    E|-xxxxxxxx-1---1---1---1-|
    
       Yes I do.
    
    Solo:
    
    I’m still working on this bit.
    
    After Solo:
    
    e|----------------------------|          e|------------|
    B|----------------------------|          B|------------|
    G|----------------------------|          G|------1---3-|
    D|--2/3-3--6-6--6-6-------8-9-| X2 Then: D|--3-1-1-1-3-| X4 
    A|--2/3-3--6-6--6-6--6-6--8-9-|          A|--3-1-1-1-1-|
    E|--0/1-1--4-4--4-4--6-6--6-7-|          E|--1-1---1-1-|
    
    Then go back to the chorus.
    
    And that should be it. I’ll work on the solo and verse and once i figure
    them out i’ll edit the tab.
    
    Any questions or what not, email me. 
    
    By the way, if the line wrapping is annoying, check out the printable version
Рейтинг: 0 Голосов: 0 Ваша оценка:

© 2012 MuzHub.net

Поддержка: info@muzhub.net. Создание сайта - DesignWebStudio.com.ua