Регистрация

Leader Of Men

  • Автор: Nickelback
  • Текст песни:
    #------------------------------------------------------------------------------------------------------#
    #-- File created with Instab - http://www.pconline.com/~smcarey/instab.html --#
    #------------------------------------------------------------------------------------------------------#
    
    Author/Artist: Nickelback
    Title: Leader Of Men
    Album: The State
    Transcribed by: Phip
    Email: Shadow-16@gmx.de
    
    Drop D Tuning (from low to high DADGBe)
    
    Key: h = hammer on
    
    This song is relatively simple,but very cool.
    
    If there are any comments, critics, etc., feel free to e-mail me!
    
    -------------------------|---------------------------------------------------------
    -------------------------|---------------------------------------------------------
    -------------------------|---------------------------------------------------------
    -0h2-----0h2----0h2-|---------------------------------------------------------
    -------------------------|-0--0h2--2-2--0h2--2-2--0h2----------------------
    ------2-------2---------|-0--0h2--2-2--0h2--2-2--0h2----------------------
     Intro                         there’s another guitar jumping in later                 
    
    ---------------------------------|--------------------------------|----------------
    ---------------------------------|--------------------------------|----------------
    ---------------------------------|--------------------------------|----------------
    --------------------2-----------|---------------------5----------|----------------
    -2--2--2--2--2---------2------|-5--5--5--5--5--------5------|----------------
    -2--2--2--2--2--------------2-|-5--5--5--5--5-------------5-|----------------
     Verse (palm muted)                                                           
    
    ---------------------------------|---------------------------------|---------------
    ---------------------------------|---------------------------------|---------------
    ---------------------------------|---------------------------------|---------------
    --------------------0------------|--------------------2-----------|----repeat---
    -0--0--0--0--0---------0------|-2--2--2--2--2---------2------|---------------
    -0--0--0--0--0--------------0-|-2--2--2--2--2--------------2-|---------------
                                                                                                
    
    ----------------------------------------------------------------------------------
    ----------------------------------------------------------------------------------
    ----------------------------------------------------------------------------------
    -5------7------2-2-2--2-2-2-2-2-2-2-2-2-2----------------------------------
    -5------7------2-2----2-2-2-2-2-2-2-2-2-2----------------------------------
    -5------7------2-2----2-2-2-2-2-2-2-2-2-2----------------------------------
     Here is the little interlude.After that,head back to the verse part.         
    
    ----------------------------------------------------------------------------------
    ----------------------------------------------------------------------------------
    ----------------------------------------------------------------------------------
    -0-0-0-0h2--2-2-2-2--2--2-2-2----------------------------------------------
    -0-0-0-0h2--2-2-2-2--2--2-2-2----------------------------------------------
    -0-0-0-0h2--2-2-2-2--2--2-2-2----------------------------------------------
    Pre-chorus (it is also played sometime in the chorus)
    
    -------------------------|--------------------------|------------------------------
    -------------------------|--------------------------|------------------------------
    -------------------------|--------------------------|------------------------------
    -2--2-2-2-2--2-2-2-2-|-5--5-5-5-5--5-5-5-5-|------------------------------
    -2--2-2-2-2--2-2-2-2-|-5--5-5-5-5--5-5-5-5-|------------------------------
    -2--2-2-2-2--2-2-2-2-|-5--5-5-5-5--5-5-5-5-|------------------------------
     Chorus (the distorted part)                                                  
    
    -------------------------|--------------------------|------------------------------
    -------------------------|--------------------------|------------------------------
    -------------------------|--------------------------|------------------------------
    -0--0-0-0-0--0-0-0-0-|-2--2-2-2-2--2-2-2-2-|------------------------------
    -0--0-0-0-0--0-0-0-0-|-2--2-2-2-2--2-2-2-2-|------------------------------
    -0--0-0-0-0--0-0-0-0-|-2--2-2-2-2--2-2-2-2-|------------------------------
                                                                                  
    
    
Рейтинг: 0 Голосов: 0 Ваша оценка:

© 2012 MuzHub.net

Поддержка: info@muzhub.net. Создание сайта - DesignWebStudio.com.ua