Регистрация

Never Again

  • Автор: Nickelback
  • Текст песни:
    This song is a great song and fairly easy to play.
    
    Tuning: D A D G B E (Drop-D)
    
    Verse :
    
    ------------------------------------------------------
    ------------------------------------------------------
    -7-7-7--10-10-10--5-5-5--------7-7-7--10-10-10--------  X2
    -------------------------33-5-------------------55-3--
    -5-5-5--8--8--8---3-3-3--33-5--5-5-5--8--8--8---55-3--
    -------------------------33-5-------------------55-3--
    
    When he sings : You see him licking his hand, sheґs just a woman....
    (pre-chorus)
    --------
    --------
    --5-----  Then go back to the verse again.
    --5--5--
    --3--5--
    -----5--
    
    Chorus :
    
    ------------------------------
    ------------------------------
    --7-7-7--5-5-5----------------  X 3
    --7-7-7--5-5-5--5-5-5--3-3-3--
    --5-5-5--3-3-3--5-5-5--3-3-3--
    ----------------5-5-5--3-3-3--
    
    After second chorus :
    
    -------------------------------
    -------------------------------
    ------------------------------- X 4
    --3-3-0--3-3-0--3-3-0-5-3-5-6--
    --3-3-0--3-3-0--3-3-0-5-3-5-6--
    --3-3-0--3-3-0--3-3-0-5-3-5-6--
    
    
    -----------
    -----------
    ----------- X 3
    --5-3-6-0--
    --5-3-6-0--
    --5-3-6-0--
    
    
    I Give The Credit To the man who taught me Matt Jansson @
    Semisonic30@hotmail.com
  • Аккорды, присутствующие в подборе:
Рейтинг: 0 Голосов: 0 Ваша оценка:

© 2012 MuzHub.net

Поддержка: info@muzhub.net. Создание сайта - DesignWebStudio.com.ua