Регистрация

Never Again

  • Автор: Nickelback
  • Текст песни:
    5-String bass Standard tuning-BEADG
    
    
    Main riff
    G-----------------------------------------------------------------------
    D-----------------------------------------------------------------------
    A-----------------------------------------------------------------------
    E--------------1-3------------3-1------------1-3------------3-1---------
    B-3313331333133---113331333133---113331333133---113331333133------------
    
    Pre-Chorus
    G-----------------------------------------------------------------------
    D-----------------------------------------------------------------------
    A-----------------10-10-10-10-10-8-8------------------------------------
    E---------33333333------------------10----------------------------------
    B-11111111--------------------------------------------------------------
    
    Chorus riff
    G-----------------------------------------------------------------------
    D-----------------------------------------------------------------------
    A-----------------------------------------------------------------------
    E--------333-111--------------------------------------------------------
    B-333-111---------------------------------------------------------------
    
    Bridge
    G-----------------------------------------------------------------------
    D-----------------------------------------------------------------------
    A-----------------------------------------------------------------------
    E-11-11-11-3-1-3-4------------------------------------------------------
    B---3--3--3-------------------------------------------------------------
    
    Bridge 2
    G-----------------------------------------------------------------------
    D-----------------------------------------------------------------------
    A-----------------------------------------------------------------------
    E-3-1-4-----------------------------------------------------------------
    B-------3---------------------------------------------------------------
    
    Last Verse
    G-----------------------------------------------------------------------
    D-----------------------------------------------------------------------
    A-----------------------------------------------------------------------
    E--------------1-3------------3-1-------------1-3-----------------------
    B-1311331333113---113331333133---113331333133----113331333133/0---------
    
    You figure out the order of the riffs. It is correct.
Рейтинг: 0 Голосов: 0 Ваша оценка:

© 2012 MuzHub.net

Поддержка: info@muzhub.net. Создание сайта - DesignWebStudio.com.ua