Регистрация

Never Again

  • Автор: Nickelback
  • Текст песни:
    Intro:
    
    e-5-5-5---8--8--8---3-3-3-¦---------¦---------
    b-7-7-7--10-10-10---5-5-5-¦---------¦---------
    g-7-7-7--10-10-10---5-5-5-¦---------¦---------
    d-7-7-7--10-10-10---5-5-5-¦---------¦---------
    a-5-5-5---8--8--8---3-3-3-¦--5-5-7--¦--8-8-6--
    e-------------------------¦--3-3-5--¦--6-6-4--
                               1st & 3rd¦2nd & 4th time
    
    Pre-chorus:
    
    e-3-3-3-3-3-3-3-3-5-5-5-5-5-5-¦-5-3-3-3-
    b-5-5-5-5-5-5-5-5-5-5-5-5-5-5-¦-5-3-3-3-
    g-5-5-5-5-5-5-5-5-6-6-6-6-6-6-¦-6-4-4-4-
    d-5-5-5-5-5-5-5-5-7-7-7-7-7-7-¦-7-5-5-5-
    a-3-3-3-3-3-3-3-3-7-7-7-7-7-7-¦-7-5-5-5-
    e-----------------5-5-5-5-5-5-¦-5-3-3-3-
                                  ¦played 2x as fast as
                                   the start
    
    Chorus:
    
    Play the intro (without vocals)
    Play the following (with vocals)
    
    e-5-5-5---3-3-3---5-5-5---3-3-3-
    b-7-7-7---5-5-5---5-5-5---3-3-3-
    g-7-7-7---5-5-5---6-6-6---4-4-4-
    d-7-7-7---5-5-5---7-7-7---5-5-5-
    a-5-5-5---3-3-3---7-7-7---5-5-5-
    e-----------------5-5-5---3-3-3-
    
    Bridge:
    
    e--------------------------------
    b--------------------------------
    g--------------------------------
    d--------------------------------   x4
    a-7-7-3---7-7-3---7-7-3-9-7-9-10-
    e-7-7-3---7-7-3---7-7-3-9-7-9-10-
    
    After the fourth time, go straight into:
    
    e----------
    b----------
    g----------
    d----------
    a-9-7-10-3-
    e-9-7-10-3-
    
    Then play the 1st part again (x4)
    This is then repeated at the end of the song (outro)
Рейтинг: 0 Голосов: 0 Ваша оценка:

© 2012 MuzHub.net

Поддержка: info@muzhub.net. Создание сайта - DesignWebStudio.com.ua