Регистрация

Never Again

  • Автор: Nickelback
  • Текст песни:
    Tuning: Drop D
    
    Intro x4
    ------------------------------------------------------------
    ------------------------------------------------------------
    -7-7-7---10-10-10---5-5-5-----------------------------------
    -7-7-7---10-10-10---5-5-5---3-3-5-----3-3-3-----------------
    -5-5-5----8--8--8---3-3-3---3-3-5-and-3-3-3-----------------
    ----------------------------3-3-5-----0-0-0-----------------
    
    Play this before the Chorus, then play intro x2
    ------------------------------------------------------------
    ------------------------------------------------------------
    -5-5-5-5-5-5-5-5-5-5-5-5-5-5-5------------------------------
    -5-5-5-5-5-5-5-5-5-5-5-5-5-5-5-5-5-5-5-5-5-5-5-5-5-5-5-5-5--
    -5-3-3-3-3-3-3-3-3-3-3-3-3-3-3-5-5-5-5-5-5-5-5-5-5-5-5-5-5--
    -------------------------------5-5-5-5-5-5-5-5-5-5-5-5-5-5--
    
    Bridge x4
    ------------------------------------------------------------
    ------------------------------------------------------------
    ------------------------------------------------------------
    -3-3-0-3-3-0-3-3-0-5-3-5-6----------------------------------
    -3-3-0-3-3-0-3-3-0-5-3-5-6----------------------------------
    -3-3-0-3-3-0-3-3-0-5-3-5-6----------------------------------
    
    This is what you play for the chorus after the first chorus
    ------------------------------------------------------------
    ------------------------------------------------------------
    -7-7-7---5-5-5----------------------------------------------
    -7-7-7---5-5-5---5-5-5---3-3-3------------------------------
    -5-5-5---3-3-3---5-5-5---3-3-3------------------------------
    -----------------5-5-5---3-3-3------------------------------
Рейтинг: 0 Голосов: 0 Ваша оценка:

© 2012 MuzHub.net

Поддержка: info@muzhub.net. Создание сайта - DesignWebStudio.com.ua