Регистрация

Never Again

  • Автор: Nickelback
  • Текст песни:
    -------------------------------------------------------------------------------
    			     Never Again - Nickleback
    -------------------------------------------------------------------------------
    Tabbed by: CheezWeezulRGM
    Email: CheezWeezulRGM1@hotmail.com
    
    Tuning: D-Tuned  Which means (D,A,D,G,B,e) for all you newbies.
    
    Intro:
    e|---------------------------------------------------------------------------|
    B|---------------------------------------------------------------------------|
    G|-7-7-7--10-10-10--5-5-5----------------------------------------------------|
    D|-7-7-7--10-10-10--5-5-5--3-3-5---------------------------------------------|
    A|-5-5-5---8—-8--8--3-3-3--3-3-5---------------------------------------------|
    E|-------------------------3-3-5---------------------------------------------|
    
    Last time throught intro play this:
    e|---------------------------------------------------------------------------|
    B|---------------------------------------------------------------------------|
    G|-7-7-7--10-10-10--5-5-5----------------------------------------------------|
    D|-7-7-7--10-10-10--5-5-5--3-3-0---------------------------------------------|
    A|-5-5-5---8—-8--8--3-3-3--3-3-0---------------------------------------------|
    E|-------------------------3-3-0---------------------------------------------|
    
    Verse is just bass and drums
    
    Pre-Chorus and also end of Chorus
    e|---------------------------------------------------------------------------|
    B|---------------------------------------------------------------------------|
    G|-5-5-5-5-5-5-5-5-5-5-5-5-5-5-5-5-------------------------------------------|
    D|-5-5-5-5-5-5-5-5-5-5-5-5-5-5-5-5--5-5-5-5-5-5-5-5-5-5-5-5-5-5-5-5----------|
    A|-3-3-3-3-3-3-3-3-3-3-3-3-3-3-3-3--5-5-5-5-5-5-5-5-5-5-5-5-5-5-5-5----------|
    E|----------------------------------5-5-5-5-5-5-5-5-5-5-5-5-5-5-5-5----------|
    
    Chorus:
    e|---------------------------------------------------------------------------|
    B|---------------------------------------------------------------------------|
    G|-7-7-7--5-5-5--------------------------------------------------------------|
    D|-7-7-7--5-5-5--5-5-5--3-3-0------------------------------------------------|
    A|-5-5-5--3-3-3--5-5-5--3-3-0------------------------------------------------|
    E|---------------5-5-5--3-3-0------------------------------------------------|
    
    Bridge:
    e|---------------------------------------------------------------------------|
    B|---------------------------------------------------------------------------|
    G|---------------------------------------------------------------------------|
    D|-3-3-0--3-3-0--3-3-0--5-3-5-6----------------------------------------------|
    A|-3-3-0--3-3-0--3-3-0--5-3-5-6----------------------------------------------|
    E|-3-3-0--3-3-0--3-3-0--5-3-5-6----------------------------------------------|
    
    Bridge: this is for when the singing starts
    e|---------------------------------------------------------------------------|
    B|---------------------------------------------------------------------------|
    G|---------------------------------------------------------------------------|
    D|-5-3-5-0--5-3-5-0--5-3-5-0--5-3-5-0----------------------------------------|
    A|-5-3-5-0--5-3-5-0--5-3-5-0--5-3-5-0----------------------------------------|
    E|-5-3-5-0--5-3-5-0--5-3-5-0--5-3-5-0----------------------------------------|
    
    Outro: Bridge and then this at the end
    e|---------------------------------------------------------------------------|
    B|---------------------------------------------------------------------------|
    G|---------------------------------------------------------------------------|
    D|-5-3-5-0-------------------------------------------------------------------|
    A|-5-3-5-0-------------------------------------------------------------------|
    E|-5-3-5-0-------------------------------------------------------------------|
    
    Intro
    Verse 1
    Pre-chorus
    Play intro for break
    Verse 2
    Pre-chorus
    Chorus
    Pre-chorus
    Play intro for break
    Verse 3
    Pre-chorus
    Chorus
    Pre-chorus
    Bridge
    Verse 4
    Pre-chorus
    Chorus x2
    Outro
Рейтинг: 0 Голосов: 0 Ваша оценка:

© 2012 MuzHub.net

Поддержка: info@muzhub.net. Создание сайта - DesignWebStudio.com.ua