Регистрация

Someday

  • Автор: Nickelback
  • Текст песни:
    ----------------------------------------------------------------------------
    			     Someday Solo - Nickelback
    -----------------------------------------------------------------------------
    Tabbed by: thevenom800
    
    Tuning:eBGDAD
    
    e|----------------------------------------------------|
    B|----------------------------------------------------|
    G|----------------------------------------------------|
    D|------/11-11b-11------9~-------/11-11b-11------9~---|
    A|----9-------------12-------7-7-------------12-------|
    E|--9----------------------7--------------------------|
    
    e|----------------------------------------------------|
    B|----------------------------------------------------|
    G|-----------------------------6-7------6-7-----------|
    D|--------7---7/9-----9/11-9--9-------7---------------|
    A|--5~-------------7----------------------------------|
    E|----------------------------------------------------|
    
    e|----------------------------------------------------|
    B|----------------------------------------------------|
    G|--------6-6-6--7-7-7-------9-9--6-6--7-7------------|
    D|--9-9-9---------------7-7---------------------------|
    A|----------------------------------------------------|
    E|----------------------------------------------------|
    
    e|----------------------------------------------------|
    B|--------------------------7-7-----------------------|
    G|--------6-6-6--7-7-7-----------7-7--9-9-------------|
    D|--9-9-9--------------7-7----------------------------|
    A|----------------------------------------------------|
    E|----------------------------------------------------|
    
    e|----------------------------------------------------|
    B|---------------7------------------------------------|
    G|-----6--7----9--------------------------------------|
    D|--9-------7------9----------------------------------|
    A|----------------------------------------------------|
    E|----------------------------------------------------|
    
    Sorry, I could only do chad’s part.
    
    | /  slide up
    |   slide down
    | h  hammer-on
    | p  pull-off
    | ~  vibrato
    | +  harmonic
    | x  Mute note
    | b  Bend
    ============================================================================
Рейтинг: 0 Голосов: 0 Ваша оценка:

© 2012 MuzHub.net

Поддержка: info@muzhub.net. Создание сайта - DesignWebStudio.com.ua