Регистрация

Someday

  • Автор: Nickelback
  • Текст песни:
    This is Someday by one of the best rock bands out there- Nickelback! This sounds
    pretty correct to me.... but if anyone has corrections, please correct me. These
    are just the chords... figure out the strum pattern yourself.
    Enjoy!!!
    
    Verse:
    (with acoustic effect)
    E|-x--2--0--2----
    B|-3--2--2--3----
    G|-4--0--2--2----
    D|-4--0--2--0----
    A|-2--2--x--x----
    E|-x--3--x--x----
      Bm  G  A  D
    
    Prechorus:
    E|-------
    B|-------
    G|-------
    D|-2--7--
    A|-2--7--
    E|-0--5--
    
    Chorus:
    E|-----------------------
    B|-----------------------
    G|-7--------7------------
    D|-7-5-7-2--7-5-2-7------
    A|-5-5-7-2--5-5-2-7------
    E|---3-5-0----3-0-5------
                (Youre the only one who knows that)
    
    Solo:
    E|---------------------------------------
    B|---------------------------------------
    G|--4-6/7/6-4--4-6/7/6-4-4-6-6-4-4-6-4-6-
    D|-4----------4---------4---4------------
    A|---------------------------------------
    E|---------------------------------------
    
    
    E|------------------------------------------
    B|------------------------------------------
    G|-4-6-7-4-9-6-7--4-6-7-11-6-7-4-6-7-4-9-11-
    D|------------------------------------------
    A|------------------------------------------
    E|------------------------------------------
    
    (first 4 power chords of chorus for rhythm)
    
    any questions- post in corrections and i will try and answer them....
  • Аккорды, присутствующие в подборе:
Рейтинг: 0 Голосов: 0 Ваша оценка:

© 2012 MuzHub.net

Поддержка: info@muzhub.net. Создание сайта - DesignWebStudio.com.ua