Регистрация

Someday (solo ver 2)

  • Автор: Nickelback
  • Текст песни:
    In this song each guitar have a solo the guitar 1 comes firts and then comes the guitar 2
    
    Guitar 1
    
    Part1
    e|---------------------------------------------------------------------------|
    B|---------------------------------------------------------------------------|
    G|---------------------------------------------------------------------------|
    D|---9-11-12-119-9---9-11-12-(11)119-9---7-9-11h12-11-999-111111-12-11--12-|
    A|5/7------------------5/7------------------5/7-------------------------12---|
    E|---------------------------------------------------------------------------|
    
    Part2
    e|----------------------------------------------------------------|
    B|--000-222-3--7-5-3-000-222-3--7-2-3--0-2-3--5-7/5-0-------------|
    G|-----------2----------------2--------------2--------------------|
    D|----------------------------------------------------------------|
    A|----------------------------------------------------------------|
    E|----------------------------------------------------------------|
    
    
    Guitar 2 joins to the Guitar 1 at the second part of itґs solo
     
    e|--777-999-10---14-12-10-777-999-10--14-12-10-7-9-10---12-14/12-7--|
    B|------------10--------------------10---------------10-------------|
    G|------------------------------------------------------------------|
    D|------------------------------------------------------------------|
    A|------------------------------------------------------------------|
    D|------------------------------------------------------------------|
Рейтинг: 0 Голосов: 0 Ваша оценка:

© 2012 MuzHub.net

Поддержка: info@muzhub.net. Создание сайта - DesignWebStudio.com.ua