Регистрация

Someday (ver 8)

  • Автор: Nickelback
  • Текст песни:
    Someday- Nickelback. This is how they are playing it live. I have multiple vids
    of them doing it. This is near perfect! Enjoy everyone... it took me awhile to do!
    
    intro/verse rhythm
    D|-x-x--x-x--0-0--x-x---------------|
    A|-5-5--2-2--0-0--x-x---------------|
    F|-6-6--2-2--4-4--x-x---------------|
    C|-6-6--2-2--4-4--2-2---------------|
    G|-4-4--0-0--2-2--2-2---------------|
    C|-x-x--x-x--x-x--2-2---------------|
       C#m  A    B5   F#5
    
    melody line Ryan does over the B5 Chord 
    D|----------------|
    A|---5-4----------|
    F|--4---4---------|
    C|----------------|
    G|----------------|
    C|----------------|
    
    prechorus 
    D|-x-------------x---------|
    A|-x-------------x---------|
    F|-x-------------4---------|
    C|-4-------------4---------|
    G|-4-------------2---------|
    C|-4-------------x---------|
      G#5(hit 8x)   B5 (hit 5x)
    
    Chorus (pt 1)
    D|-x-x--x-x--x-x--x-x--------------|
    A|-x-2--x-x--x-x--x-x--------------|
    F|-2-2--x-x--4-4--x-x--------------|
    C|-2-2--2-2--4-4--4-4--------------|
    G|-0-0--2-2--2-2--4-4--------------|
    C|-x-x--2-2--x-x--4-4--------------|
       A5   F#5  B5   G#5
    
    Chorus (pt 2) (You’re the only one who knows that...)
    D|-x-x--x-x--x-x-x-x--x-x-x-x----|
    A|-x-x--x-x--x-x-x-x--x-x-x-x----|
    F|-2-2--4-4--6-6-6-6--4-4-4-4----|
    C|-2-2--4-2--6-6-6-6--4-4-4-4----|
    G|-0-0--2-2--4-4-4-4--2-2-2-2----|
    C|-x-x--x-x--x-x-x-x--x-x-x-x----|
       A5   B5    C#5      B5
    
    Chorus (pt 3)
    D|-x-x--x-x--x-x--x-x--------------|
    A|-x-2--x-x--x-x--x-x--------------|
    F|-2-2--x-x--4-4--x-x--------------|
    C|-2-2--2-2--4-4--4-4--------------|
    G|-0-0--2-2--2-2--4-4--------------|
    C|-x-x--2-2--x-x--4-4--------------|
       A5   F#5  B5   G#5
    
    Chorus (pt 4)
    D|-x-x--x-x--x--------------------|
    A|-x-x--x-x--x--------------------|
    F|-2-2--4-4--6--------------------|
    C|-2-2--4-4--6--------------------|
    G|-0-0--2-2--4--------------------|
    C|-x-x--x-x--x--------------------|
       A5   B5   C#5
    
    Melody line Ryan does at the C#5 chord
    D|-------4--------|
    A|----5-----------|
    F|-4h6-4----------|
    C|----------------|
    G|----------------|
    C|----------------|
    
    Verse
    D|-x-x--x-x--0-0--x-x---------------|
    A|-5-5--2-2--0-0--x-x---------------|
    F|-6-6--2-2--4-4--x-x---------------|
    C|-6-6--2-2--4-4--2-2---------------|
    G|-4-4--0-0--2-2--2-2---------------|
    C|-x-x--x-x--x-x--2-2---------------|
       C#m  A    B5   F#5
    
    melody line Ryan does over the B5 Chord 
    D|----------------|
    A|---5-4----------|
    F|--4---4---------|
    C|----------------|
    G|----------------|
    C|----------------|
    
    prechorus 
    D|-x-------------x---------|
    A|-x-------------x---------|
    F|-x-------------4---------|
    C|-4-------------4---------|
    G|-4-------------2---------|
    C|-4-------------x---------|
      G#5(hit 8x)   B5 (hit 5x)
    
    Chorus (pt 1)
    D|-x-x--x-x--x-x--x-x--------------|
    A|-x-2--x-x--x-x--x-x--------------|
    F|-2-2--x-x--4-4--x-x--------------|
    C|-2-2--2-2--4-4--4-4--------------|
    G|-0-0--2-2--2-2--4-4--------------|
    C|-x-x--2-2--x-x--4-4--------------|
       A5   F#5  B5   G#5
    
    Chorus (pt 2) (You’re the only one who knows that...)
    D|-x-x--x-x--x-x-x-x--x-x-x-x----|
    A|-x-x--x-x--x-x-x-x--x-x-x-x----|
    F|-2-2--4-4--6-6-6-6--4-4-4-4----|
    C|-2-2--4-2--6-6-6-6--4-4-4-4----|
    G|-0-0--2-2--4-4-4-4--2-2-2-2----|
    C|-x-x--x-x--x-x-x-x--x-x-x-x----|
       A5   B5    C#5      B5
    
    Chorus (pt 3)
    D|-x-x--x-x--x-x--x-x--------------|
    A|-x-2--x-x--x-x--x-x--------------|
    F|-2-2--x-x--4-4--x-x--------------|
    C|-2-2--2-2--4-4--4-4--------------|
    G|-0-0--2-2--2-2--4-4--------------|
    C|-x-x--2-2--x-x--4-4--------------|
       A5   F#5  B5   G#5
    
    Chorus (pt 4)
    D|-x-x--x-x--x-x-----------------|
    A|-x-x--x-x--x-x-----------------|
    F|-2-2--4-4--6-6-----------------|
    C|-2-2--4-4--6-6-----------------|
    G|-0-0--2-2--4-4-----------------|
    C|-x-x--x-x--x-x-----------------|
       A5   B5   C#5 (hit 7x times)
    
    Solo (chorus is rhythm for solo)
    D|-------------------------------------------------------|
    A|-------------------------------------------------------|
    F|--6-8-8b-8-6---6-8-8b-8-6--6-8--8-6-8-8-9-8-8-9--------|
    C|-------------6-----------6----6------------------------|
    G|-------------------------------------------------------|
    C|-------------------------------------------------------|
    
    D|-------------------------------------------------------|
    A|-------------------------------------------------------|
    F|-6-6-8-9-6-11-8-9-6-8-9-6-13-8-9-6-8-9-6-9-11-6--------|
    C|-------------------------------------------------------|
    G|-------------------------------------------------------|
    C|-------------------------------------------------------|
    
    Verse
    D|-x-x--x-x--0-0--x-x---------------|
    A|-5-5--2-2--0-0--x-x---------------|
    F|-6-6--2-2--4-4--x-x---------------|
    C|-6-6--2-2--4-4--2-2---------------|
    G|-4-4--0-0--2-2--2-2---------------|
    C|-x-x--x-x--x-x--2-2---------------|
       C#m  A    B5   F#5
    
    D|-x-x--x-x--0-0-x-x-x-----------|
    A|-5-5--2-2--0-0-x-x-x-----------|
    F|-6-6--2-2--4-4-4-4-4-----------|
    C|-6-6--2-2--4-4-4-4-4-----------|
    G|-4-4--0-0--2-2-2-2-2-----------|
    C|-x-x--x-x--x-x-x-x-x-----------|
       C#m  A    B5 (tried to turn the tables)
    
    verse
    D|-x-x--x-x--0-0--x-x---------------|
    A|-5-5--2-2--0-0--x-x---------------|
    F|-6-6--2-2--4-4--x-x---------------|
    C|-6-6--2-2--4-4--2-2---------------|
    G|-4-4--0-0--2-2--2-2---------------|
    C|-x-x--x-x--x-x--2-2---------------|
       C#m  A    B5   F#5
    
    prechorus 
    D|-x-------------x---------|
    A|-x-------------x---------|
    F|-x-------------4---------|
    C|-4-------------4---------|
    G|-4-------------2---------|
    C|-4-------------x---------|
      G#5(hit 8x)   B5 (hit 5x)
    
    Chorus (pt 1)
    D|-x-x--x-x--x-x--x-x--------------|
    A|-x-2--x-x--x-x--x-x--------------|
    F|-2-2--x-x--4-4--x-x--------------|
    C|-2-2--2-2--4-4--4-4--------------|
    G|-0-0--2-2--2-2--4-4--------------|
    C|-x-x--2-2--x-x--4-4--------------|
       A5   F#5  B5   G#5
    
    Chorus (pt 2) (You’re the only one who knows that...)
    D|-x-x--x-x--x-x-x-x--x-x-x-x----|
    A|-x-x--x-x--x-x-x-x--x-x-x-x----|
    F|-2-2--4-4--6-6-6-6--4-4-4-4----|
    C|-2-2--4-2--6-6-6-6--4-4-4-4----|
    G|-0-0--2-2--4-4-4-4--2-2-2-2----|
    C|-x-x--x-x--x-x-x-x--x-x-x-x----|
       A5   B5    C#5      B5
    
    Chorus (pt 3)
    D|-x-x--x-x--x-x--x-x--------------|
    A|-x-2--x-x--x-x--x-x--------------|
    F|-2-2--x-x--4-4--x-x--------------|
    C|-2-2--2-2--4-4--4-4--------------|
    G|-0-0--2-2--2-2--4-4--------------|
    C|-x-x--2-2--x-x--4-4--------------|
       A5   F#5  B5   G#5
    
    Chorus (pt 4)
    D|-x-x--x-x--x-x-x-x--x-x-x-x-----|
    A|-x-x--x-x--x-x-x-x--x-x-x-x-----|
    F|-2-2--4-4--6-6-6-6--4-4-4-4-----|
    C|-2-2--4-4--6-6-6-6--4-4-4-4-----|
    G|-0-0--2-2--4-4-4-4--2-2-2-2-----|
    C|-x-x--x-x--x-x-x-x--x-x-x-x-----|
       A5   B5   C#5      B5
    
    Chorus (pt 5)
    D|-x-x--x-x--x-x-x-x--x-x-x-x-----|
    A|-x-x--x-x--x-x-x-x--x-x-x-x-----|
    F|-2-2--4-4--6-6-6-6--4-4-4-4-----|
    C|-2-2--4-4--6-6-6-6--4-4-4-4-----|
    G|-0-0--2-2--4-4-4-4--2-2-2-2-----|
    C|-x-x--x-x--x-x-x-x--x-x-x-x-----|
       A5   B5   C#5      B5
    
    Chorus (pt 6)
    D|-x-x--x-x--x-------------------|
    A|-x-x--x-x--x-------------------|
    F|-2-2--4-4--x-------------------|
    C|-2-2--4-4--4-------------------|
    G|-0-0--2-2--4-------------------|
    C|-x-x--x-x--4-------------------|
       A5   B5   G#5
    
    Melody Line Ryan does at the G#5 chord
    D|-------4--------|
    A|----5-----------|
    F|-4h6-4----------|  x3 to end song
    C|----------------|
    G|----------------|
    C|----------------|
  • Аккорды, присутствующие в подборе:
Рейтинг: 0 Голосов: 0 Ваша оценка:

© 2012 MuzHub.net

Поддержка: info@muzhub.net. Создание сайта - DesignWebStudio.com.ua