Регистрация

Where Do I Hide

  • Автор: Nickelback
  • Текст песни:
    Band: Nickelback:
    Song: Where Do I Hide
    Album: SSU
    Tuning: Dropped D DADGBe
    
    Intro
    
    E|---------------------------------------------
    B|---------------------------------------------
    G|---------------------------------------------       
    D|---------------------------------------------
    A|---------------------------------------------
    D|-/9-9-7-9-13-13-13--XXX--15-13-15b-15-13-9-9-
    
    E|---------------------------------------------
    B|---------------------------------------------
    G|---------------------------------------------
    D|--------------------9-9--99-9----------------
    A|--------------------9-9--99-9----------------
    D|-/9-9-7-9-13-13-13--9-9--99-9----------------
    
    Riff 1
    
    E|---------5-5-5----------------
    B|---------5-5-5----------------
    G|-4--4-4--2-2-2--9/7/10-9-7-22-      X2
    D|-4--4-4--2-2-2--9/7/ 8-9-7-44-
    A|-2--2-2---------7/5/ 8-7-5-44-
    D|------------------------------
    
    Riff 2 - and during verse
    
    E|-----------------------------------------------------
    B|-----------------------------------------------------
    G|-------------4---------------4--44-4---------------4-
    D|-------0h2---4---------0h2---4--44-4---------0h2---4-
    A|-0h2-0-----0-2---0h2-0-----0-2--22-2---0h2-0-----0-2-
    D|-----------------------------------------------------
    
    E|------------------
    B|------------------
    G|-------------4--7-
    D|-------0h2---4--7-
    A|-0h2-0-----0-2--5-
    D|------------------
    
    Then back to Riff 1 during chorus.
Рейтинг: 0 Голосов: 0 Ваша оценка:

© 2012 MuzHub.net

Поддержка: info@muzhub.net. Создание сайта - DesignWebStudio.com.ua