Регистрация

Алкоголь

  • Автор: Сплин
  • Текст песни:
    G ------------------|
    D ------------------|
    А |0-000-000-000-000-000-000-000| 
    Е ------------------|
    и т.д
     
    основной рифф (можно попробовать но октаву ниже) 
    e ---------------------------|
    B |--5---5---5---5----5/65-|--5---5---5---5---5---3-|
    G |2---2---2---2---2--------|2---2---2---2---2---2---|
    D ---------------------------|
    A ---------------------------|
    E ---------------------------|
    
    e ---------------------------|
    B |--5---5---5---5----5/65-|--5---5---5---5---------|
    G |2---2---2---2---2--------|2---2---2---2-----------|
    D ---------------------------|
    A ---------------------------|
    E ---------------------------|
    
    *Дальше в песне идут вариации этого риффа которые вы можете 
    *легко подобрать, но предлагаю вам не париться и играть
    *как Саша Васильев на акустическом концерте в Джон буле, там он отпустил
    *g-струнну на полтона, чтобы беря аккорд ми-мажор получался минор. Впрочем, если не опускать струну на полтона тоже получается вполне сносно :)  
    
    E
    Мой друг алкоголь точно знает чем дышит Есенин 
         F/E                                      E
    Мой друг алкоголь искупал Брайна Джонса в бассейне 
    
      F/E       E          (и так на каждую строчку припева)
    Алкоголь отпустил меня 
    Алкоголь не простил меня 
    Он вернется опять 
    Горло мне обжигать 
    Алкоголь, твою мать 
    
    Он пустил корни в теле моем, превратился в растение 
    В среду мы сели за стол, а теперь воскресение 
    
    Алкоголь отпустил меня 
    Алкоголь не простил меня 
    Он вернется опять 
    Горло мне обжигать 
    Алкоголь, твою мать 
    
    Кто-то смеется в углу или только мне кажется 
    То, что вчера завязал завтра снова развяжется 
    
    Алкоголь отпустил меня 
    Алкоголь не простил меня 
    Он вернется опять 
    Горло мне обжигать 
    Алкоголь(X5) , твою мать 
     
       E   F/E
    e |0-| 0-|
    B |0-| 0-|
    G |1-| 2-|
    D |2-| 3-|
    A |2-| 3-|
    E |0-| 0-|
    (Струнна G опущена на полтона)   
  • Аккорды, присутствующие в подборе:
Рейтинг: 0 Голосов: 0 Ваша оценка:

© 2012 MuzHub.net

Поддержка: info@muzhub.net. Создание сайта - DesignWebStudio.com.ua