Регистрация

Another Perfect Day

  • Автор: American Hi-fi
  • Текст песни:
    Another Perfect Day
    American Hi-Fi
    Tabbed By: Mike
    
    Intro
    |-------------------3-3-3-3-3-3-3-3---0--0--0-0---------------------|
    |-1--1-1---1--1-1---0-0-0-0-0-0-0-0---3--3--3-3---------------------|
    |-0--0-0---0--0-0---0-0-0-0-0-0-0-0---2--2--2-2---2-2-2-2-2-2-2-2---|
    |-2--2-2---0--0-0---0-0-0-0-0-0-0-0---0--0--0-0---3-3-3-3-3-3-3-3---|
    |-3--3-3---2--2-2---2-2-2-2-2-2-2-2---------------3-3-3-3-3-3-3-3---|
    |-------------------3-3-3-3-3-3-3-3---------------1-1-1-1-1-1-1-1---|
    
    1st Verse
    |-------------------0--0--0-0---------------------3-3-3-3-3-3-3-3---|
    |-1--1-1---1--1-1---3--3--3-3---------------------0-0-0-0-0-0-0-0---|
    |-0--0-0---0--0-0---2--2--2-2---2-2-2-2-2-2-2-2---0-0-0-0-0-0-0-0---|
    |-2--2-2---0--0-0---0--0--0-0---3-3-3-3-3-3-3-3---0-0-0-0-0-0-0-0---|
    |-3--3-3---2--2-2---------------3-3-3-3-3-3-3-3---2-2-2-2-2-2-2-2---|
    |-------------------------------1-1-1-1-1-1-1-1---3-3-3-3-3-3-3-3---|
    
    2nd Verse
    |-----------------------------------------|
    |-----------------------------------------|
    |-------------------------------7-7-7-7---|
    |-5-5-5-------------------------7-7-7-7---|
    |-5-5-5---7-7--7-7---6-6--6-6---5-5-5-5---|
    |-3-3-3---5-5--5-5---4-4--4-4-------------|
    
    Chorus
    |-------------------------------------------------------------------------|
    |-------------------------------------------------------------------------|
    |----------5--5-5---5--5-5---------------------7--7-7---5-5-5-5-5-5-5-5---|
    |-3--3-3---5--5-5---5--5-5---7--7-7---5--5-5---7--7-7---5-5-5-5-5-5-5-5---|
    |-3--3-3---3--3-3---2--2-2---7--7-7---5--5-5---5--5-5---3-3-3-3-3-3-3-3---|
    |-1--1-1---------------------5--5-5---3--3-3------------------------------|
    
    Solo
    |-12--------15-12^-----------------------12--------15-12^----------|
    |----13-------------13-15--15^-15^-15^------13-------------13-15---|
    |-------12-------------------------------------12------------------|
    |------------------------------------------------------------------|
    |------------------------------------------------------------------|
    |------------------------------------------------------------------|
    
    |----------------------------------------------13^-12---|
    |-15^-15^-15^--15--13-13-13-13---12-13--15--------------|
    |------------------------------------------12-----------|
    |-------------------------------------------------------|
    |-------------------------------------------------------|
    |-------------------------------------------------------|
Рейтинг: 0 Голосов: 0 Ваша оценка:

© 2012 MuzHub.net

Поддержка: info@muzhub.net. Создание сайта - DesignWebStudio.com.ua