Регистрация

Another Perfect Day

  • Автор: American Hi-fi
  • Текст песни:
    I’ve noticed no one has really tabbed a great version of this song, so I thought
    I’d tab it.
    well the chords out and the solo, not all the amounts and order and stuff cos I
    don’t feel like doin all that right now.
    it’s dropped half a step this song so play in Eb-Ab-Db-Gb-Bb-Eb
    
    Intro
    |-0-------0---3---0---0-
    |-1---1---1---3---3---1-
    |-0---0---2---0---2---2-
    |-2---0---2---0---0---3-
    |-3---2---0---x-------3-
    |-------------3-------1-
    
    ok that last Fmaj7 chord you either play like that with your thumb, or you can
    just play an F barre chord, doesn’t really make too much difference.
    
    Verse
    |-----0---0---3-
    |-1---1---1---3-
    |-0---2---2---0-
    |-2---0---3---0-
    |-3-------3---x-
    |---------1---3-
    
    then for the chorus use the intro chords.
    the second verse is a little different to the first
    
    Verse 2
    |-----5---0---3-
    |-1---3---1---3-
    |-0---2---2---0-
    |-2---0---3---0-
    |-3-------3---x-
    |---------1---3-
    
    then after that’s played once you’ll play.
    
    |-----------------------------0----------
    |-----0-----0-----1-----1---1---1--------
    |---1-----1-----2-----2-----------2------
    |-------------0-----0-----3---------3----
    |-3-----3--------------------------------
    |--------------------------------------3-
    
    |-3-3-3-------------------------------------
    |-3-3-3------5-----5-----5-----5------------
    |-0-0-0------5-----5-----5-----5--7-7-7-7-7-
    |-0-0-0---------------------------7-7-7-7-7-
    |-x-x-x---------------------------5-5-5-5-5-
    |-3-3-3--5-5---5-5---4-4---4-4--------------
    
    then the chords
    
    |-0-------------------------
    |-1-------------------------
    |-2---5---5---2-------7---5-
    |-3---5---5---2---5---7---x-
    |-3---3---2---0---5---5---3-
    |-1---------------3---------
    
    you’re going to have to listen to the strumming for the above cos some have less
    strums than others.
    
    then the solo
    
    |-12--------15--12^^^----------------12-------15-12^^^----------------
    |----13---------------13/15--15^-15-----13-------------13/15-15-15-15-
    |-------12---------------------------------12-------------------------
    |---------------------------------------------------------------------
    |---------------------------------------------------------------------
    |---------------------------------------------------------------------
    
    ----------------------------13^-12-|
    -15-13-13-13-13-12-13-15-----------|
    -------------------------12--------|
    -----------------------------------|
    -----------------------------------|
    -----------------------------------|
    
    then go into single strums on chords below
    
    |-0---0---0-----
    |-1---1---3---1-
    |-2---1---2---0-
    |-2-------0---3-
    |-0-----------3-
    |-------------1-
    
    then basically for the outro you’re just playing the solo and once the solo is
    finished play
    
    |-----------------------
    |-----------------------
    |-5-------5/7--5-5/7--5-
    |-x-(x14)-x----x-x----5-
    |-3-------3/5--3-3/5--3-
    |-----------------------
    
    then that’s the end of the song for you.
    please rate it
  • Аккорды, присутствующие в подборе:
Рейтинг: 0 Голосов: 0 Ваша оценка:

© 2012 MuzHub.net

Поддержка: info@muzhub.net. Создание сайта - DesignWebStudio.com.ua