Регистрация

Vertigo

  • Автор: American Hi-fi
  • Текст песни:
    Tabbed by: Edy
    Email: ettore.85@tiscali.it
    
    Tuning: DGCFAD
    
    INTRO (every chord is 4/4)
    D|------------------------------------------------------------------------|
    A|------------------------------------------------------------------------|
    F|--5-----10--5--5-----10--10--5------------------------------------------|
    C|--5--5--10--5--5--5--10--10--5------------------------------------------|
    G|--3--5--8---3--3--5--8---8---3------------------------------------------|
    D|-----3------------3-----------------------------------------------------|
    
    Verse
    D|------------------------------------------------------------------------|
    A|------------------------------------------------------------------------|
    F|------------------5------3----------------------------------------------|
    C|--33--33--33--33--5--x2--3----------------------------------------------|
    G|--33--33--33--33--3------1----------------------------------------------|
    D|--11--11--11--11--------------------------------------------------------|
    
    Chorus
    D|------------------------------------------------------------------------|
    A|------------------------------------------------------------------------|
    F|--5--------5--5-----------5---------------------------------------------|
    C|--5--5--3--5--5--5--3--3--5---------------------------------------------|
    G|--3--5--3--3--3--5--3--3--3---------------------------------------------|
    D|-----3--1--------3--1--1------------------------------------------------|
    
    repeat the verse
    repeat many times the chorus
    
    If you write or find a better version, send it at 
    Thanks
Рейтинг: 0 Голосов: 0 Ваша оценка:

© 2012 MuzHub.net

Поддержка: info@muzhub.net. Создание сайта - DesignWebStudio.com.ua